Here I come - Dennis Brown

Transcribed by InTheMix
Instruments : Guitar, Bass
Chords :

A - Bm

do this back and forth throughout the entire song.


Bass tabs :

e----------------------------- 
B----------------------------- 
G----------------------------- 
D----------------------------- 
A-------3-7---3-7---5-9---5-9- 
E----555---555---777---777---- 

Repeat pattern throughout song...
That's it..enjoy
Transcribed by leinadaljure
Instruments : Bass
G|-------------------------------------|
D|-------------------------------------|
A|------225------225------887------887-|
E|--333------333------555------555-----|


Variation:
1)
G|-------------------------------------|
D|-------------------------------------|
A|------225------225------887------887-|
E|--533-------533------855------855----|

2)
G|-------------------------------------|
D|-------------------------------------|
A|------225------225-----8877------8877|
E|--333------333----- 855-------855----|

3)
G|-------------------------------------|
D|-------------------------------------|
A|------225------225------887------8-7-|
E|--333------333------555------555-----|

4)
G|-------------------------------------|
D|-----------------------------------7-|
A|------225------225------887------88--|
E|--333------333------555-------855----|


Ohhohh oh....ohhohh oh
x2
G|----------------------|
D|-----5----------7-----|
A|--5-----5----7-----7--|
E|----------------------|


Home | Tablatures | Compos | Blog | Forum | Directory | Contact