Promise land - Dennis Brown

Transcribed by Offaman
Instruments : Bass
G|---------------------------------------| 
D|--------3-5----------------3-5---------| 
A|-5--5-5------0-0-3--5--5-5-----0-0-3-0-| 
E|--------------------------------------1| 
Transcribed by alix
Instruments : Bass
Riddim :

G|--------------------------------!--------------------------------|
D|------------3-5-----------------!------------3-5-----------------|
A|5-------5-5-------------3---3---!5-------5-5-------------3-------|
E|----------------5---5-----------!----------------5---5-----1-1---|

Bridge :

G|--------------------------------!--------------------------------|
D|--------3-3-3-3-5---5---8-7-7---!--------3-3-3-3-5---5---7-------|
A|----5---------------------------!----5---------------------8-8---|
E|----------------.---------------!----------------.---------------|

G|--------------------------------!--------------------------------|
D|--------3-3-3-3-5---5---8-7-7---!------------3-5-----------------|
A|----5---------------------------!--------5-5-------------3-------|
E|----------------.---------------!----------------5---5-----------|
Transcribed by Rastamar
Instruments : Bass
G|---------------------------------------|  
D|--------3-5----------------3-5---------|  
A|-5--5-5------0-0-303-5--5-5----0-0-3-0-|  
E|--------------------------------------1| 

Home | Tablatures | Compos | Blog | Forum | Directory | Contact